Jamiroquai- Didjital Vibrations Door
MPbass
- 2015-10-02 20:49:40

Basic riff:
G--)---------------------------------------------------------X-5h7--
D--)------.---.-----------------.---.----------------.---.-----------.--
A--)---5-5--5---(rest)---5-5--5--(rest)---3-3--3--------------
E--)-----------------------------------------------------------------

G--)-----------------------X--5h7---------------------------------
D--)---------------.---.-----------.-----------------.----.---------
A--)---(rest)--3-3--3-------------------5----5-5---5-----(repeat)--
E--)---------------------------------------------------------------

Remember that the notes with the dots are played in staccato.
Now, from time to time, Stuart adds some pretty cool fills between
the D's and the C's (during the second rest). Here they are:

Fill 1:
G--)-------------------------------------------X-5h7-----------
D--)------.----.--------------------.----.------------------- etc.
A--)---5-5---5----------------3-3---3------------------------------
E--)---------------X-X--3--------------------------------------
That one is played the most often throughout the piece.

Fill 2:
G--)----------------------------------------------X-5h7----------------
D--)--------.----.---------------------.----.-------------------------
A--)-----5-5---5-----------------3-3---3--------------------------------
E--)-----------------X-X--8\------------------------------------------
That's played a couple of times in the middle part of the song.

Fill 3:
G--)-------------------X-11-13~~------------------X-5h7------------------
D--)---------.----.---------------------------.----.----------------etc
A--)------5-5---5-----------------------3-3---3-------------------------
E--)--------------------------------------------------------------
That one's played around the end a couple of times.


De tab is 1036 keer bekeken | Er zijn 3 reacties | Reageren?

Reacties
MPbass


2015-12-07 21:49:00
Is het al tijd voor een nieuwe riff van de week?
Gast

2015-12-20 15:41:47
!!!! Waarom kan ik toch die verrekte kpdnavnaag.nl niet openen? Het is onmogelijk om ze te bereiken en op mail wordt niet gereageerd, ik vind het een waardeloze actie van KPN en dit gaat ze in iedergeval mij als klant kosten!
Gast

2015-12-21 13:35:38
None