Drifters- Save The Last Dance For Me Door
John
- 2016-04-24 22:34:51

Save the last dance for me

Intro:
G|------7--------7----
D|----7--7-----7--7--
A|-5--------5---------
E|---------------------

Verse:
G|------7--------7--------7-------------------------------------------------
D|----7--7-----7--7-----7--7------7--------7--------7--------7--------7---
A|-5--------5--------5-----------7--7-----7--7-----7--7-----7--7-----7--7-
E|----------------------------5--------5--------5--------5--------5---------

G|------7--------7----------------------------------7--------7------------
D|----7--7-----7--7-------------------------------7--7-----7--7------7---
A|-5--------5--------10----10-----10----10-----5--------5----------7--7-
E|-----------------------10--10-------10--10---------------------5-------

G|----------------7--------7---
D|------7-------7--7-----7--7-
A|----7--7---5-------5--------
E|-5---------------------------

Repeat Verse:

Middle 8:
G|--------------------------7--------7---------------------------7--------7---
D|------7--------7--------7--7-----7--7-----7--------7--------7--7-----7--7-
A|----7--7-----7--7---5--------5----------7--7-----7--7---5--------5--------
E|-5--------5--------------------------5--------5------------------------------

Repeat Verse:

Instrumental Interlude: (Repeat Middle 8)

Play This: (Part Verse)
G|--------------------------------7--------7-------------------------
D|------------------------------7--7-----7--7--------7--------7------
A|-10----10-----10----10-----5--------5-----------7--7-----7--7---
E|-----10--10-------10--10---------------------5--------5----------

G|------7--------7---
D|----7--7-----7--7-
A|-5--------5-------
E|------------------

Outro: (Repeat To Fade/End)
G|--------------------------7--------7---
D|------7--------7--------7--7-----7--7-
A|----7--7-----7--7---5--------5--------
E|-5--------5----------------------------


De tab is 161 keer bekeken | Er zijn 0 reacties | Reageren?

Reacties
Er zijn nog geen reacties toegevoegd