Elvis Presley- Good Luck Charms Door
John
- 2016-04-24 22:41:47

Good Luck Charms


|---------------|-------2-------|-0------------|
|-------2-------|-0--4-----4-0-|----2--0------|
|-0--3-----3-0-|---------------|----------2----|
|---------------|---------------|---------------|


1st - 3rd Verses
$
|-------------||--0--4--7--4---|-------0------|--------------|
|-------0--2--||-------------5-|----2-----2-0-|-------0------|
|----2--------||---------------|-3------------|----2-----2---|
|-3-----------||---------------|--------------|-3----------3-|


|-------2------|--------------|-------0------|-------2------|
|-0--4-----4-0-|--------------|----2-----2---|-0--4-----4-0-|
|--------------|-------0--2---|-3----------3-|--------------|
|--------------|-3--3-------3-|--------------|--------------|


Chorus

|-0----------||-------2----2-|--------------|-0------------|
|------------||-0--4-----4---|-0--0--2--4-0-|----2--0-----|
|------------||--------------|--------------|----------2----|
|------------||--------------|--------------|---------------|


|--------------|-------2----2-|------------------|----------------|
|--------------|-0--4-----4---|-0--0--2--4-2-----|-------2--------|
|-------2--3-0-|--------------|--------------3-2-|-0--4-----4-----|
|-3--3---------|--------------|------------------|------------5---|

To Coda

|-------2------|-0------------|----------------||
|-0--4-----4-0-|----2--0----0-|------------4--||
|--------------|----------2---|-------2--3-----||
|--------------|--------------|-3--3-----------||

Interlude

|---------------|-------2------|-0------------|-------------|
|-------2----2-|-0--4-----4-0-|----2--0----0-|-------------|
|-0--4-----4---|--------------|----------2---|-------2--3--|
|---------------|--------------|--------------|-3--3--------|

D.S. al Coda

|---------------|-------2----2-|-0-----------|---------------||
|--------2------|-0--4-----4--|----2--0-----|-------0--2-0-||
|-0--4-----4-0-|--------------|----------2--|----2----------||
|---------------|--------------|-------------|-3-------------||

Outro
3x
||--------2-------|-0-----------|-------------|---------------||
||--0--4-----4-0-|----2--0-----|-------------|-------2-------||
||----------------|----------2--|-------2--3--|-0--3-----3---||
||----------------|-------------|-3--3--------|---------------||


De tab is 155 keer bekeken | Er zijn 0 reacties | Reageren?

Reacties
Er zijn nog geen reacties toegevoegd