Gerry & The Pacemakers- You'll Never Walk Alone Door
John
- 2016-04-24 22:49:19

Youll Never Walk Alone


Verse & Chorus:

G|------5-------5----------12---------12------------10----------5--|
D|-----5-5-----5-5-------12--12-----12--12--------10--10-------5-5-|
A|-3-------3--------10----------10--------10---8------------3------|
E|-----------------------------------------------------------------|

G|---------------12--------7----------------10-------7-------------|
D|-----5-------12--12-----7-7------8------10--10----7-7---8-8--7-7-|
A|----5-5---10---------5----------8-8---8---------5----------------|
E|-3---------------------------6-----------------------------------|

G|-------------------------------10--------------------------10----|
D|--5-5------------------------10--10-------------10-------10--10--|
A|-------8-8--7-77-7---------8-------8-7-7------10--10---8---------|
E|-------------------8-88-8-------------7-7---8--------------------|

G|---------------9--------10------------------------------------|
D|-----10-------9-9-----10--10------------------10---------10---|
A|---10--10---7-------8---------10-8-7--------10--10-----10--10-|
E|-8-----------------------------------10---8----------8--------|

G|---------------------------------------------------------------|
D|-------------------------2-2--3-3--4-4-------------------------|
A|-8-88---8-7-5-55-5---3-3----------------7-77-7----------------|
E|-------------------------------------------------33333333-3333-|

G|-----------------------------------------------|
D|-----------------------------------------------|
A|-----7-7---8-8---10-10-------------------------|
E|-8-8-------------------8-88-8---33333333-3333-|

G|------------------------------------------------------------|
D|-----10--------10-----------------------------2-2--3-3--4-4-|
A|---10--10----10--10---8-88---8-7-5-55-5---3-3---------------|
E|-8---------8------------------------------------------------|

G|------------------------|
D|------------------------|
A|-7-77-7----------------|
E|----------33333333-3333-|

Outro:
Ne ever walk a lone
G|----------------------------------------------------|
D|------------3-----5---3-3-3333-2--------------------|
A|-3------------------------------5---3-3-3-3-3-3-3-3-|
E|----------------------------------------------------|


De tab is 151 keer bekeken | Er zijn 0 reacties | Reageren?

Reacties
Er zijn nog geen reacties toegevoegd