Linda Ronstadt- Blue Bayou Door
John
- 2016-04-25 21:34:17


G|---------------------------------|---------------------------------|
D|--------4--------------4---------|--------4--------------4---------|
A|-2-------------2-----------------|-2-------------2-----------------|
E|-----------2----------------2----|-----------2----------------2----|


G|---------------------------------|---------------------------------|
D|------------4--------------4-----|------------4---------------4----|
A|--------4-------------4----------|--------4--------------4---------|
E|-2-------------2-----------------|-2-------------2-----------------|


G|---------------------------------|---------------------------------|
D|--------4--------------4---------|--------4--------------4---------|
A|-2-------------2-----------------|-2-------------2-----------------|
E|-----------2----------------2----|-----------2----------------2----|


G|---------------------------------|---------------------------------|
D|------------4--------------4-----|------------4---------------4----|
A|--------4-------------4----------|--------4--------------4---------|
E|-2-------------2-----------------|-2-------------2-----------------|


Chorus
G|---------------------------------|---------------------------------|
D|--------4--------------4---------|--------4--------------4---------|
A|-2-------------2-----------------|-2-------------2-----------------|
E|-----------2----------------2----|-----------2----------------2----|



G|---------------------------------|---------------------------------|
D|------------4--------------4-----|------------4---------------4----|
A|--------4-------------4----------|--------4--------------4---------|
E|-2-------------2-----------------|-2-------------2-----------------|


G|---------------------------------|---------------------------------|
D|--------4--------------4---------|--------4--------------4---------|
A|-2-------------2-----------------|-2-------------2-----------------|
E|-----------2----------------2----|-----------2----------------2----|


G|---------------------------------|---------------------------------|
D|-2-2-1---------------------------|-------4--------------------4----|
A|-------4-------------------------|-2---------------------4---------|
E|---------1(hold)-----------------|----------2---2------------------|


G|---------------------------------|
D|----------4-----------------4----|
A|-------4---------------4---------|
E|-2------------2------------------|



De tab is 183 keer bekeken | Er zijn 0 reacties | Reageren?

Reacties
Er zijn nog geen reacties toegevoegd