Triggerfinger- I follow rivers Door
Arrieman
- 2012-08-02 15:34:54

Triggerfinger - I follow rivers


intro

G:|---------------------------------------------------------------------|
D:|---------------------------------------------------------------------|
A:|--6-6---6-3-3-----3------------------6-6---3-3--3--------------------|
E:|---------------------3-3-3---6-6-6-6-------------023-3-3/6-6-6-------|


verse

G:|---------------------------------------------------------------------|
D:|---------------------------------------------------------------------|
A:|--3-3--123-3-------------------3-3----3-------------------55---------|
E:|---------------0123-3--3-3---------3------0-0123-3-3-3-------3-------|

G:|---------------------------------------------------------------------|
D:|---------------------------------------------------------------------|
A:|--3-3---3-3---------------------3-3----3--3-33----------1-22---------|
E:|------33------0123-3---3-3----------3-----------3-3--3-3-------------|

G:|-----------------------------------------------|
D:|-----------------------------------------------|
A:|--33-3---3-3--3--------------------------------|
E:|-------3------------6-6-6--/15-\---------------|


Chorus

G:|-------------------------------------------------------------|
D:|-------------------------------------------------------------|
A:|--6-6----6----3-3--32--------------------88------------------|
E:|--------6-------------------3-3-3/---6-6------6--------------|

G:|-------------------------------------------------------------|
D:|-------------------------------------------------------------|
A:|-6-6----6----3-3---------------------------------------------|
E:|-------6------------00123-3-3-3/-6-6-67----------------------|


Verse 2

G:|-------------------------------------------------------------|
D:|-------------------------------------------------------------|
A:|--3-3----3-3---3/10-10-----10----10--10---10-----------------|
E:|-------3--------------10----------------10-------------------|

G:|-------------------------------------------------------------|
D:|-------------------------------------------------------------|
A:|--3-3----33-----------------3--/-10--10----10----------------|
E:|--------3----01-223-3---3--------------10--------------------|

G:|-------------------------------------------------------------|
D:|--------------------------------------12-12------------------|
A:|--3-3----3-3--32--------------/-10---------10----------------|
E:|--------3----------6--6---6----------------------------------|



Chorus

G:|-------------------------------------------------------------|
D:|-------------------------------------------------------------|
A:|--6--6----6---3--3-------------------------------------------|
E:|---------6-----------00123-3--3--/-6-6--6--------------------|

G:|-------------------------------------------------------------|
D:|-------------------------------------------------------------|
A:|--6-66-6--6/15--15----------15-------------------88----------|
E:|----------------------15-15------3-3---3/6--6----------6-----|

G:|-------------------------------------------------------------|
D:|-----------------------------------------88------------------|
A:|--6-6---6---3--3---3------------------88----8----------------|
E:|-------6----------3------3-3---3/6------------6--------------|

G:|---------------------------------------------|
D:|---------------------------------------------|
A:|-6-66---6---3--------------------------------|
E:|------6--------00123-3----3/6-6-6------------|

Bridge

G:|-------------------------------------|
D:|-------------------------------------|
A:|----3------------/10\----------------|
E:|------------6------------------------|


chorus / outro

G:|------------------------------------------------------------|
D:|------------------------------------------------------------|
A:|-6--6---6----3-3-32-----------------------------------------|
E:|-------6----------------3--3---3/6--6----6------------------|
-
G:|------------------------------------------------------------|
D:|------------------------------------------------------------|
A:|--6---6---6-6--6----3--3333---------------------------------|
E:|----8---8--------------------0-3-3----3/6-6-6---------------|


G:|------------------------------------------------------------|
D:|------------------------------------------------------------|
A:|--6-666-6----3-3/15-15--------------------------------------|
E:|-------------------------15----3--3--3/6--6666--------------|


G:|------------------------------------------------------------|
D:|------------------------------------------------------------|
A:|--6--66-6\3----333----------------------------6-------------|
E:|--------------3-----------3-3-3/6-6--6----------------------|


De tab is 11310 keer bekeken | Er zijn 4 reacties | Reageren?

Reacties
Gasboer


2012-08-04 12:10:42
Super ga deze proberen
Gast

2014-01-12 19:55:14
Ziet er goed uit. Ga ik uitproberen. Bedankt!
Gast

2015-06-08 14:06:45
goeje tabs en juist
Gast

2016-05-10 16:54:39
Goeie tap! Heerlijke baspartij, duurde wel even voordat ik m goed door had